ISO-10303-21;
HEADER;
/****************************************************************
 * Generated by software with PDE/Lib inside                    *
 * PDElib Version v51a, created Tue 12/06/2005                  *
 * International Technegroup Inc. (www.iti-oh.com)              *
 ****************************************************************/
FILE_DESCRIPTION((''),'2;1');
FILE_NAME('\\\\pc50\\users\\dpp\\DraftingIncoming\\6080-131 FieldCageTermination Plate-1.stp','2008-02-21T13:29:26',('mds'),(''),'Autodesk Inventor 11','Autodesk Inventor 11','');
FILE_SCHEMA(('AUTOMOTIVE_DESIGN { 1 0 10303 214 1 1 1 1 }'));
ENDSEC;
DATA;
#5=APPLICATION_CONTEXT('automotive design');
#6=APPLICATION_PROTOCOL_DEFINITION('International Standard','automotive_design',2001,#5);
#7=PRODUCT_CONTEXT('',#5,'mechanical');
#8=PRODUCT('6080-131 FieldCageTermination Plate-1','6080-131 FieldCageTermination Plate-1',$,(#7));
#9=PRODUCT_RELATED_PRODUCT_CATEGORY('part',$,(#8));
#10=PRODUCT_DEFINITION_FORMATION('',$,#8);
#11=PRODUCT_DEFINITION_CONTEXT('part definition',#5,'design');
#12=PRODUCT_DEFINITION('',$,#10,#11);
#18=(NAMED_UNIT(*)PLANE_ANGLE_UNIT()SI_UNIT($,.RADIAN.));
#19=DIMENSIONAL_EXPONENTS(0.0,0.0,0.0,0.0,0.0,0.0,0.0);
#20=PLANE_ANGLE_MEASURE_WITH_UNIT(PLANE_ANGLE_MEASURE(0.017453292500000),#18);
#24=(CONVERSION_BASED_UNIT('DEGREE',#20)NAMED_UNIT(#19)PLANE_ANGLE_UNIT());
#28=(NAMED_UNIT(*)SI_UNIT($,.STERADIAN.)SOLID_ANGLE_UNIT());
#32=(LENGTH_UNIT()NAMED_UNIT(*)SI_UNIT(.MILLI.,.METRE.));
#34=UNCERTAINTY_MEASURE_WITH_UNIT(LENGTH_MEASURE(0.010000000000000),#32,'DISTANCE_ACCURACY_VALUE','');
#36=(GEOMETRIC_REPRESENTATION_CONTEXT(3)GLOBAL_UNCERTAINTY_ASSIGNED_CONTEXT((#34))GLOBAL_UNIT_ASSIGNED_CONTEXT((#24,#28,#32))REPRESENTATION_CONTEXT('None','None'));
#37=AXIS2_PLACEMENT_3D('',#38,#39,#40);
#38=CARTESIAN_POINT('',(0.0,0.0,0.0));
#39=DIRECTION('',(0.0,0.0,1.0));
#40=DIRECTION('',(1.0,0.0,0.0));
#41=SHAPE_REPRESENTATION('',(#37),#36);
#42=PRODUCT_DEFINITION_SHAPE('','',#12);
#43=SHAPE_DEFINITION_REPRESENTATION(#42,#41);
#44=CARTESIAN_POINT('',(-53.999999999999972,300.500000000000060,0.0));
#45=DIRECTION('',(-1.0,0.0,0.0));
#46=DIRECTION('',(0.0,0.0,1.0));
#47=AXIS2_PLACEMENT_3D('',#44,#45,#46);
#48=PLANE('',#47);
#49=CARTESIAN_POINT('',(-53.999999999999972,300.500000000000060,8.500000000000000));
#50=VERTEX_POINT('',#49);
#51=CARTESIAN_POINT('',(-53.999999999999972,303.500000000000060,8.500000000000000));
#52=VERTEX_POINT('',#51);
#53=CARTESIAN_POINT('',(-53.999999999999972,300.500000000000060,8.500000000000000));
#54=DIRECTION('',(0.0,1.0,0.0));
#55=VECTOR('',#54,3.0);
#56=LINE('',#53,#55);
#57=EDGE_CURVE('',#50,#52,#56,.T.);
#58=ORIENTED_EDGE('',*,*,#57,.F.);
#59=CARTESIAN_POINT('',(-53.999999999999972,300.500000000000060,0.0));
#60=VERTEX_POINT('',#59);
#61=CARTESIAN_POINT('',(-53.999999999999972,300.500000000000060,0.0));
#62=DIRECTION('',(0.0,0.0,1.0));
#63=VECTOR('',#62,8.500000000000000);
#64=LINE('',#61,#63);
#65=EDGE_CURVE('',#60,#50,#64,.T.);
#66=ORIENTED_EDGE('',*,*,#65,.F.);
#67=CARTESIAN_POINT('',(-53.999999999999972,303.500000000000060,0.0));
#68=VERTEX_POINT('',#67);
#69=CARTESIAN_POINT('',(-53.999999999999972,303.500000000000060,0.0));
#70=DIRECTION('',(0.0,-1.0,0.0));
#71=VECTOR('',#70,3.0);
#72=LINE('',#69,#71);
#73=EDGE_CURVE('',#68,#60,#72,.T.);
#74=ORIENTED_EDGE('',*,*,#73,.F.);
#75=CARTESIAN_POINT('',(-53.999999999999972,303.500000000000060,0.0));
#76=DIRECTION('',(0.0,0.0,1.0));
#77=VECTOR('',#76,8.500000000000000);
#78=LINE('',#75,#77);
#79=EDGE_CURVE('',#68,#52,#78,.T.);
#80=ORIENTED_EDGE('',*,*,#79,.T.);
#81=EDGE_LOOP('',(#58,#66,#74,#80));
#82=FACE_OUTER_BOUND('',#81,.T.);
#83=ADVANCED_FACE('',(#82),#48,.F.);
#84=CARTESIAN_POINT('',(-49.999999999999964,303.500000000000060,0.0));
#85=DIRECTION('',(0.0,0.0,1.0));
#86=DIRECTION('',(-1.0,0.0,0.0));
#87=AXIS2_PLACEMENT_3D('',#84,#85,#86);
#88=CYLINDRICAL_SURFACE('',#87,4.0);
#89=CARTESIAN_POINT('',(-45.999999999999957,303.500000000000060,8.500000000000000));
#90=VERTEX_POINT('',#89);
#91=CARTESIAN_POINT('',(-49.999999999999964,303.500000000000060,8.500000000000000));
#92=DIRECTION('',(0.0,0.0,-1.0));
#93=DIRECTION('',(-1.0,0.0,0.0));
#94=AXIS2_PLACEMENT_3D('',#91,#92,#93);
#95=CIRCLE('',#94,4.0);
#96=EDGE_CURVE('',#52,#90,#95,.T.);
#97=ORIENTED_EDGE('',*,*,#96,.F.);
#98=ORIENTED_EDGE('',*,*,#79,.F.);
#99=CARTESIAN_POINT('',(-45.999999999999957,303.500000000000060,0.0));
#100=VERTEX_POINT('',#99);
#101=CARTESIAN_POINT('',(-49.999999999999964,303.500000000000060,0.0));
#102=DIRECTION('',(0.0,0.0,1.0));
#103=DIRECTION('',(-1.0,0.0,0.0));
#104=AXIS2_PLACEMENT_3D('',#101,#102,#103);
#105=CIRCLE('',#104,4.0);
#106=EDGE_CURVE('',#100,#68,#105,.T.);
#107=ORIENTED_EDGE('',*,*,#106,.F.);
#108=CARTESIAN_POINT('',(-45.999999999999957,303.500000000000060,0.0));
#109=DIRECTION('',(0.0,0.0,1.0));
#110=VECTOR('',#109,8.500000000000000);
#111=LINE('',#108,#110);
#112=EDGE_CURVE('',#100,#90,#111,.T.);
#113=ORIENTED_EDGE('',*,*,#112,.T.);
#114=EDGE_LOOP('',(#97,#98,#107,#113));
#115=FACE_OUTER_BOUND('',#114,.T.);
#116=ADVANCED_FACE('',(#115),#88,.F.);
#117=CARTESIAN_POINT('',(-45.999999999999957,303.500000000000060,0.0));
#118=DIRECTION('',(1.0,0.0,0.0));
#119=DIRECTION('',(0.0,0.0,-1.0));
#120=AXIS2_PLACEMENT_3D('',#117,#118,#119);
#121=PLANE('',#120);
#122=CARTESIAN_POINT('',(-45.999999999999957,300.500000000000060,8.500000000000000));
#123=VERTEX_POINT('',#122);
#124=CARTESIAN_POINT('',(-45.999999999999957,303.500000000000060,8.500000000000000));
#125=DIRECTION('',(0.0,-1.0,0.0));
#126=VECTOR('',#125,3.0);
#127=LINE('',#124,#126);
#128=EDGE_CURVE('',#90,#123,#127,.T.);
#129=ORIENTED_EDGE('',*,*,#128,.F.);
#130=ORIENTED_EDGE('',*,*,#112,.F.);
#131=CARTESIAN_POINT('',(-45.999999999999957,300.500000000000060,0.0));
#132=VERTEX_POINT('',#131);
#133=CARTESIAN_POINT('',(-45.999999999999957,300.500000000000060,0.0));
#134=DIRECTION('',(0.0,1.0,0.0));
#135=VECTOR('',#134,3.0);
#136=LINE('',#133,#135);
#137=EDGE_CURVE('',#132,#100,#136,.T.);
#138=ORIENTED_EDGE('',*,*,#137,.F.);
#139=CARTESIAN_POINT('',(-45.999999999999957,300.500000000000060,0.0));
#140=DIRECTION('',(0.0,0.0,1.0));
#141=VECTOR('',#140,8.500000000000000);
#142=LINE('',#139,#141);
#143=EDGE_CURVE('',#132,#123,#142,.T.);
#144=ORIENTED_EDGE('',*,*,#143,.T.);
#145=EDGE_LOOP('',(#129,#130,#138,#144));
#146=FACE_OUTER_BOUND('',#145,.T.);
#147=ADVANCED_FACE('',(#146),#121,.F.);
#148=CARTESIAN_POINT('',(-49.999999999999964,300.500000000000060,0.0));
#149=DIRECTION('',(0.0,0.0,1.0));
#150=DIRECTION('',(1.0,0.0,0.0));
#151=AXIS2_PLACEMENT_3D('',#148,#149,#150);
#152=CYLINDRICAL_SURFACE('',#151,4.0);
#153=CARTESIAN_POINT('',(-49.999999999999964,300.500000000000060,8.500000000000000));
#154=DIRECTION('',(0.0,0.0,-1.0));
#155=DIRECTION('',(1.0,0.0,0.0));
#156=AXIS2_PLACEMENT_3D('',#153,#154,#155);
#157=CIRCLE('',#156,4.0);
#158=EDGE_CURVE('',#123,#50,#157,.T.);
#159=ORIENTED_EDGE('',*,*,#158,.F.);
#160=ORIENTED_EDGE('',*,*,#143,.F.);
#161=CARTESIAN_POINT('',(-49.999999999999964,300.500000000000060,0.0));
#162=DIRECTION('',(0.0,0.0,1.0));
#163=DIRECTION('',(1.0,0.0,0.0));
#164=AXIS2_PLACEMENT_3D('',#161,#162,#163);
#165=CIRCLE('',#164,4.0);
#166=EDGE_CURVE('',#60,#132,#165,.T.);
#167=ORIENTED_EDGE('',*,*,#166,.F.);
#168=ORIENTED_EDGE('',*,*,#65,.T.);
#169=EDGE_LOOP('',(#159,#160,#167,#168));
#170=FACE_OUTER_BOUND('',#169,.T.);
#171=ADVANCED_FACE('',(#170),#152,.F.);
#172=CARTESIAN_POINT('',(-48.369522733086868,302.0,8.500000000000000));
#173=DIRECTION('',(0.0,0.0,1.0));
#174=DIRECTION('',(1.0,0.0,0.0));
#175=AXIS2_PLACEMENT_3D('',#172,#173,#174);
#176=PLANE('',#175);
#177=ORIENTED_EDGE('',*,*,#158,.T.);
#178=ORIENTED_EDGE('',*,*,#57,.T.);
#179=ORIENTED_EDGE('',*,*,#96,.T.);
#180=ORIENTED_EDGE('',*,*,#128,.T.);
#181=EDGE_LOOP('',(#177,#178,#179,#180));
#182=FACE_OUTER_BOUND('',#181,.T.);
#183=CARTESIAN_POINT('',(-48.500000000000000,299.600000000000020,8.500000000000014));
#184=VERTEX_POINT('',#183);
#185=CARTESIAN_POINT('',(-50.0,299.600000000000020,8.500000000000014));
#186=DIRECTION('',(0.0,0.0,-1.0));
#187=DIRECTION('',(-1.0,0.0,0.0));
#188=AXIS2_PLACEMENT_3D('',#185,#186,#187);
#189=CIRCLE('',#188,1.500000000000000);
#190=EDGE_CURVE('',#184,#184,#189,.T.);
#191=ORIENTED_EDGE('',*,*,#190,.F.);
#192=EDGE_LOOP('',(#191));
#193=FACE_BOUND('',#192,.T.);
#194=ADVANCED_FACE('',(#182,#193),#176,.F.);
#195=CARTESIAN_POINT('',(-48.500000000000000,299.600000000000020,8.500000000000000));
#196=CARTESIAN_POINT('',(-48.500000000000000,299.600000000000020,9.0));
#197=CARTESIAN_POINT('',(-48.500000000000000,298.100000000000020,8.500000000000000));
#198=CARTESIAN_POINT('',(-48.500000000000000,298.100000000000020,9.0));
#199=CARTESIAN_POINT('',(-50.0,298.100000000000020,8.500000000000000));
#200=CARTESIAN_POINT('',(-50.0,298.100000000000020,9.0));
#201=CARTESIAN_POINT('',(-51.500000000000000,298.100000000000020,8.500000000000000));
#202=CARTESIAN_POINT('',(-51.500000000000000,298.100000000000020,9.0));
#203=CARTESIAN_POINT('',(-51.500000000000000,299.600000000000020,8.500000000000000));
#204=CARTESIAN_POINT('',(-51.500000000000000,299.600000000000020,9.0));
#205=CARTESIAN_POINT('',(-51.500000000000000,301.100000000000020,8.500000000000000));
#206=CARTESIAN_POINT('',(-51.500000000000000,301.100000000000020,9.0));
#207=CARTESIAN_POINT('',(-50.0,301.100000000000020,8.500000000000000));
#208=CARTESIAN_POINT('',(-50.0,301.100000000000020,9.0));
#209=CARTESIAN_POINT('',(-48.500000000000000,301.100000000000020,8.500000000000000));
#210=CARTESIAN_POINT('',(-48.500000000000000,301.100000000000020,9.0));
#211=CARTESIAN_POINT('',(-48.500000000000000,299.600000000000020,8.500000000000000));
#212=CARTESIAN_POINT('',(-48.500000000000000,299.600000000000020,9.0));
#220=(BOUNDED_SURFACE()B_SPLINE_SURFACE(1,2,((#195,#197,#199,#201,#203,#205,#207,#209,#211),(#196,#198,#200,#202,#204,#206,#208,#210,#212)),.UNSPECIFIED.,.F.,.T.,.U.)B_SPLINE_SURFACE_WITH_KNOTS((2,2),(3,2,2,2,3),(-344.798014351527170,-344.464681018193860),(0.0,2.356194490192345,4.712388980384691,7.068583470577035,9.424777960769381),.UNSPECIFIED.)GEOMETRIC_REPRESENTATION_ITEM()RATIONAL_B_SPLINE_SURFACE(((1.0,0.707106781186548,1.0,0.707106781186548,1.0,0.707106781186548,1.0,0.707106781186548,1.0),(1.0,0.707106781186548,1.0,0.707106781186548,1.0,0.707106781186548,1.0,0.707106781186548,1.0)))REPRESENTATION_ITEM('')SURFACE());
#221=ORIENTED_EDGE('',*,*,#190,.T.);
#222=EDGE_LOOP('',(#221));
#223=FACE_OUTER_BOUND('',#222,.T.);
#224=CARTESIAN_POINT('',(-48.500000000000000,299.600000000000020,8.999999999999986));
#225=VERTEX_POINT('',#224);
#226=CARTESIAN_POINT('',(-50.0,299.600000000000020,8.999999999999986));
#227=DIRECTION('',(0.0,0.0,-1.0));
#228=DIRECTION('',(-1.0,0.0,0.0));
#229=AXIS2_PLACEMENT_3D('',#226,#227,#228);
#230=CIRCLE('',#229,1.500000000000000);
#231=EDGE_CURVE('',#225,#225,#230,.T.);
#232=ORIENTED_EDGE('',*,*,#231,.F.);
#233=EDGE_LOOP('',(#232));
#234=FACE_BOUND('',#233,.T.);
#235=ADVANCED_FACE('',(#223,#234),#220,.F.);
#236=CARTESIAN_POINT('',(0.0,278.499999999999660,7.620989449764984));
#237=DIRECTION('',(0.0,0.0,-1.0));
#238=DIRECTION('',(1.0,0.0,0.0));
#239=AXIS2_PLACEMENT_3D('',#236,#237,#238);
#240=CONICAL_SURFACE('',#239,1.033500000000000,59.000000000000007);
#241=CARTESIAN_POINT('',(2.067000000000000,278.499999999999660,7.000000000000001));
#242=VERTEX_POINT('',#241);
#243=CARTESIAN_POINT('',(0.0,278.499999999999660,7.000000000000001));
#244=DIRECTION('',(0.0,0.0,1.0));
#245=DIRECTION('',(1.0,0.0,0.0));
#246=AXIS2_PLACEMENT_3D('',#243,#244,#245);
#247=CIRCLE('',#246,2.067000000000000);
#248=EDGE_CURVE('',#242,#242,#247,.T.);
#249=ORIENTED_EDGE('',*,*,#248,.F.);
#250=EDGE_LOOP('',(#249));
#251=FACE_OUTER_BOUND('',#250,.T.);
#252=ADVANCED_FACE('',(#251),#240,.F.);
#253=CARTESIAN_POINT('',(0.0,278.499999999999660,3.500000000000000));
#254=DIRECTION('',(0.0,0.0,1.0));
#255=DIRECTION('',(1.0,0.0,0.0));
#256=AXIS2_PLACEMENT_3D('',#253,#254,#255);
#257=CYLINDRICAL_SURFACE('',#256,2.067000000000000);
#258=CARTESIAN_POINT('',(2.067000000000000,278.499999999999660,0.0));
#259=VERTEX_POINT('',#258);
#260=CARTESIAN_POINT('',(0.0,278.499999999999660,0.0));
#261=DIRECTION('',(0.0,0.0,1.0));
#262=DIRECTION('',(1.0,0.0,0.0));
#263=AXIS2_PLACEMENT_3D('',#260,#261,#262);
#264=CIRCLE('',#263,2.067000000000000);
#265=EDGE_CURVE('',#259,#259,#264,.T.);
#266=ORIENTED_EDGE('',*,*,#265,.F.);
#267=EDGE_LOOP('',(#266));
#268=FACE_OUTER_BOUND('',#267,.T.);
#269=ORIENTED_EDGE('',*,*,#248,.T.);
#270=EDGE_LOOP('',(#269));
#271=FACE_BOUND('',#270,.T.);
#272=ADVANCED_FACE('',(#268,#271),#257,.F.);
#273=CARTESIAN_POINT('',(227.038853090409700,262.416385135134760,7.620989449764984));
#274=DIRECTION('',(0.0,0.0,-1.0));
#275=DIRECTION('',(1.0,0.0,0.0));
#276=AXIS2_PLACEMENT_3D('',#273,#274,#275);
#277=CONICAL_SURFACE('',#276,1.033500000000000,59.000000000000007);
#278=CARTESIAN_POINT('',(229.105853090409710,262.416385135134760,7.000000000000001));
#279=VERTEX_POINT('',#278);
#280=CARTESIAN_POINT('',(227.038853090409700,262.416385135134760,7.000000000000001));
#281=DIRECTION('',(0.0,0.0,1.0));
#282=DIRECTION('',(1.0,0.0,0.0));
#283=AXIS2_PLACEMENT_3D('',#280,#281,#282);
#284=CIRCLE('',#283,2.067000000000000);
#285=EDGE_CURVE('',#279,#279,#284,.T.);
#286=ORIENTED_EDGE('',*,*,#285,.F.);
#287=EDGE_LOOP('',(#286));
#288=FACE_OUTER_BOUND('',#287,.T.);
#289=ADVANCED_FACE('',(#288),#277,.F.);
#290=CARTESIAN_POINT('',(227.038853090409700,262.416385135134760,3.500000000000000));
#291=DIRECTION('',(0.0,0.0,1.0));
#292=DIRECTION('',(1.0,0.0,0.0));
#293=AXIS2_PLACEMENT_3D('',#290,#291,#292);
#294=CYLINDRICAL_SURFACE('',#293,2.067000000000000);
#295=CARTESIAN_POINT('',(229.105853090409710,262.416385135134760,0.0));
#296=VERTEX_POINT('',#295);
#297=CARTESIAN_POINT('',(227.038853090409700,262.416385135134760,0.0));
#298=DIRECTION('',(0.0,0.0,1.0));
#299=DIRECTION('',(1.0,0.0,0.0));
#300=AXIS2_PLACEMENT_3D('',#297,#298,#299);
#301=CIRCLE('',#300,2.067000000000000);
#302=EDGE_CURVE('',#296,#296,#301,.T.);
#303=ORIENTED_EDGE('',*,*,#302,.F.);
#304=EDGE_LOOP('',(#303));
#305=FACE_OUTER_BOUND('',#304,.T.);
#306=ORIENTED_EDGE('',*,*,#285,.T.);
#307=EDGE_LOOP('',(#306));
#308=FACE_BOUND('',#307,.T.);
#309=ADVANCED_FACE('',(#305,#308),#294,.F.);
#310=CARTESIAN_POINT('',(-227.038853090409670,262.416385135134820,7.620989449764984));
#311=DIRECTION('',(0.0,0.0,-1.0));
#312=DIRECTION('',(1.0,0.0,0.0));
#313=AXIS2_PLACEMENT_3D('',#310,#311,#312);
#314=CONICAL_SURFACE('',#313,1.033500000000000,59.000000000000007);
#315=CARTESIAN_POINT('',(-224.971853090409640,262.416385135134820,7.000000000000001));
#316=VERTEX_POINT('',#315);
#317=CARTESIAN_POINT('',(-227.038853090409670,262.416385135134820,7.000000000000001));
#318=DIRECTION('',(0.0,0.0,1.0));
#319=DIRECTION('',(1.0,0.0,0.0));
#320=AXIS2_PLACEMENT_3D('',#317,#318,#319);
#321=CIRCLE('',#320,2.067000000000000);
#322=EDGE_CURVE('',#316,#316,#321,.T.);
#323=ORIENTED_EDGE('',*,*,#322,.F.);
#324=EDGE_LOOP('',(#323));
#325=FACE_OUTER_BOUND('',#324,.T.);
#326=ADVANCED_FACE('',(#325),#314,.F.);
#327=CARTESIAN_POINT('',(-227.038853090409670,262.416385135134820,3.500000000000000));
#328=DIRECTION('',(0.0,0.0,1.0));
#329=DIRECTION('',(1.0,0.0,0.0));
#330=AXIS2_PLACEMENT_3D('',#327,#328,#329);
#331=CYLINDRICAL_SURFACE('',#330,2.067000000000000);
#332=CARTESIAN_POINT('',(-224.971853090409640,262.416385135134820,0.0));
#333=VERTEX_POINT('',#332);
#334=CARTESIAN_POINT('',(-227.038853090409670,262.416385135134820,0.0));
#335=DIRECTION('',(0.0,0.0,1.0));
#336=DIRECTION('',(1.0,0.0,0.0));
#337=AXIS2_PLACEMENT_3D('',#334,#335,#336);
#338=CIRCLE('',#337,2.067000000000000);
#339=EDGE_CURVE('',#333,#333,#338,.T.);
#340=ORIENTED_EDGE('',*,*,#339,.F.);
#341=EDGE_LOOP('',(#340));
#342=FACE_OUTER_BOUND('',#341,.T.);
#343=ORIENTED_EDGE('',*,*,#322,.T.);
#344=EDGE_LOOP('',(#343));
#345=FACE_BOUND('',#344,.T.);
#346=ADVANCED_FACE('',(#342,#345),#331,.F.);
#347=CARTESIAN_POINT('',(0.0,347.0,7.620989449764984));
#348=DIRECTION('',(0.0,0.0,-1.0));
#349=DIRECTION('',(1.0,0.0,0.0));
#350=AXIS2_PLACEMENT_3D('',#347,#348,#349);
#351=CONICAL_SURFACE('',#350,1.033500000000000,59.000000000000007);
#352=CARTESIAN_POINT('',(2.067000000000000,347.0,7.000000000000001));
#353=VERTEX_POINT('',#352);
#354=CARTESIAN_POINT('',(0.0,347.0,7.000000000000001));
#355=DIRECTION('',(0.0,0.0,1.0));
#356=DIRECTION('',(1.0,0.0,0.0));
#357=AXIS2_PLACEMENT_3D('',#354,#355,#356);
#358=CIRCLE('',#357,2.067000000000000);
#359=EDGE_CURVE('',#353,#353,#358,.T.);
#360=ORIENTED_EDGE('',*,*,#359,.F.);
#361=EDGE_LOOP('',(#360));
#362=FACE_OUTER_BOUND('',#361,.T.);
#363=ADVANCED_FACE('',(#362),#351,.F.);
#364=CARTESIAN_POINT('',(0.0,347.0,3.500000000000000));
#365=DIRECTION('',(0.0,0.0,1.0));
#366=DIRECTION('',(1.0,0.0,0.0));
#367=AXIS2_PLACEMENT_3D('',#364,#365,#366);
#368=CYLINDRICAL_SURFACE('',#367,2.067000000000000);
#369=CARTESIAN_POINT('',(2.067000000000000,347.0,0.0));
#370=VERTEX_POINT('',#369);
#371=CARTESIAN_POINT('',(0.0,347.0,0.0));
#372=DIRECTION('',(0.0,0.0,1.0));
#373=DIRECTION('',(1.0,0.0,0.0));
#374=AXIS2_PLACEMENT_3D('',#371,#372,#373);
#375=CIRCLE('',#374,2.067000000000000);
#376=EDGE_CURVE('',#370,#370,#375,.T.);
#377=ORIENTED_EDGE('',*,*,#376,.F.);
#378=EDGE_LOOP('',(#377));
#379=FACE_OUTER_BOUND('',#378,.T.);
#380=ORIENTED_EDGE('',*,*,#359,.T.);
#381=EDGE_LOOP('',(#380));
#382=FACE_BOUND('',#381,.T.);
#383=ADVANCED_FACE('',(#379,#382),#368,.F.);
#384=CARTESIAN_POINT('',(0.0,0.0,0.0));
#385=DIRECTION('',(0.0,0.0,1.0));
#386=DIRECTION('',(-0.720076401279334,-0.693894787644787,0.0));
#387=AXIS2_PLACEMENT_3D('',#384,#385,#386);
#388=CYLINDRICAL_SURFACE('',#387,356.999999999999940);
#389=CARTESIAN_POINT('',(-257.067275256721980,247.720439189188940,9.0));
#390=VERTEX_POINT('',#389);
#391=CARTESIAN_POINT('',(257.067275256721980,247.720439189188940,9.0));
#392=VERTEX_POINT('',#391);
#393=CARTESIAN_POINT('',(0.0,0.0,9.0));
#394=DIRECTION('',(0.0,0.0,-1.0));
#395=DIRECTION('',(-0.720076401279334,-0.693894787644787,0.0));
#396=AXIS2_PLACEMENT_3D('',#393,#394,#395);
#397=CIRCLE('',#396,356.999999999999940);
#398=EDGE_CURVE('',#390,#392,#397,.T.);
#399=ORIENTED_EDGE('',*,*,#398,.T.);
#400=CARTESIAN_POINT('',(257.067275256721980,247.720439189188940,0.0));
#401=VERTEX_POINT('',#400);
#402=CARTESIAN_POINT('',(257.067275256721980,247.720439189188940,0.0));
#403=DIRECTION('',(0.0,0.0,1.0));
#404=VECTOR('',#403,9.0);
#405=LINE('',#402,#404);
#406=EDGE_CURVE('',#401,#392,#405,.T.);
#407=ORIENTED_EDGE('',*,*,#406,.F.);
#408=CARTESIAN_POINT('',(-257.067275256721980,247.720439189188940,0.0));
#409=VERTEX_POINT('',#408);
#410=CARTESIAN_POINT('',(0.0,0.0,0.0));
#411=DIRECTION('',(0.0,0.0,-1.0));
#412=DIRECTION('',(-0.720076401279334,-0.693894787644787,0.0));
#413=AXIS2_PLACEMENT_3D('',#410,#411,#412);
#414=CIRCLE('',#413,356.999999999999940);
#415=EDGE_CURVE('',#409,#401,#414,.T.);
#416=ORIENTED_EDGE('',*,*,#415,.F.);
#417=CARTESIAN_POINT('',(-257.067275256721980,247.720439189188940,0.0));
#418=DIRECTION('',(0.0,0.0,1.0));
#419=VECTOR('',#418,9.0);
#420=LINE('',#417,#419);
#421=EDGE_CURVE('',#409,#390,#420,.T.);
#422=ORIENTED_EDGE('',*,*,#421,.T.);
#423=EDGE_LOOP('',(#399,#407,#416,#422));
#424=FACE_OUTER_BOUND('',#423,.T.);
#425=ADVANCED_FACE('',(#424),#388,.T.);
#426=CARTESIAN_POINT('',(0.0,-1332.000000000000200,0.0));
#427=DIRECTION('',(0.0,0.0,1.0));
#428=DIRECTION('',(0.160616854268492,0.987016831733327,0.0));
#429=AXIS2_PLACEMENT_3D('',#426,#427,#428);
#430=CYLINDRICAL_SURFACE('',#429,1600.500000000000000);
#431=CARTESIAN_POINT('',(0.0,-1332.000000000000200,9.0));
#432=DIRECTION('',(0.0,0.0,1.000000000000000));
#433=DIRECTION('',(0.160616854268492,0.987016831733327,0.0));
#434=AXIS2_PLACEMENT_3D('',#431,#432,#433);
#435=CIRCLE('',#434,1600.499999999999800);
#436=EDGE_CURVE('',#392,#390,#435,.T.);
#437=ORIENTED_EDGE('',*,*,#436,.T.);
#438=ORIENTED_EDGE('',*,*,#421,.F.);
#439=CARTESIAN_POINT('',(0.0,-1332.000000000000200,0.0));
#440=DIRECTION('',(0.0,0.0,1.000000000000000));
#441=DIRECTION('',(0.160616854268492,0.987016831733327,0.0));
#442=AXIS2_PLACEMENT_3D('',#439,#440,#441);
#443=CIRCLE('',#442,1600.499999999999800);
#444=EDGE_CURVE('',#401,#409,#443,.T.);
#445=ORIENTED_EDGE('',*,*,#444,.F.);
#446=ORIENTED_EDGE('',*,*,#406,.T.);
#447=EDGE_LOOP('',(#437,#438,#445,#446));
#448=FACE_OUTER_BOUND('',#447,.T.);
#449=ADVANCED_FACE('',(#448),#430,.F.);
#450=CARTESIAN_POINT('',(-1.716618E-014,287.773238578848010,9.0));
#451=DIRECTION('',(0.0,0.0,1.0));
#452=DIRECTION('',(1.0,0.0,0.0));
#453=AXIS2_PLACEMENT_3D('',#450,#451,#452);
#454=PLANE('',#453);
#455=ORIENTED_EDGE('',*,*,#398,.F.);
#456=ORIENTED_EDGE('',*,*,#436,.F.);
#457=EDGE_LOOP('',(#455,#456));
#458=FACE_OUTER_BOUND('',#457,.T.);
#459=ORIENTED_EDGE('',*,*,#231,.T.);
#460=EDGE_LOOP('',(#459));
#461=FACE_BOUND('',#460,.T.);
#462=ADVANCED_FACE('',(#458,#461),#454,.T.);
#463=CARTESIAN_POINT('',(-1.716618E-014,287.773238578848010,0.0));
#464=DIRECTION('',(0.0,0.0,1.0));
#465=DIRECTION('',(1.0,0.0,0.0));
#466=AXIS2_PLACEMENT_3D('',#463,#464,#465);
#467=PLANE('',#466);
#468=ORIENTED_EDGE('',*,*,#444,.T.);
#469=ORIENTED_EDGE('',*,*,#415,.T.);
#470=EDGE_LOOP('',(#468,#469));
#471=FACE_OUTER_BOUND('',#470,.T.);
#472=ORIENTED_EDGE('',*,*,#73,.T.);
#473=ORIENTED_EDGE('',*,*,#166,.T.);
#474=ORIENTED_EDGE('',*,*,#137,.T.);
#475=ORIENTED_EDGE('',*,*,#106,.T.);
#476=EDGE_LOOP('',(#472,#473,#474,#475));
#477=FACE_BOUND('',#476,.T.);
#478=ORIENTED_EDGE('',*,*,#265,.T.);
#479=EDGE_LOOP('',(#478));
#480=FACE_BOUND('',#479,.T.);
#481=ORIENTED_EDGE('',*,*,#302,.T.);
#482=EDGE_LOOP('',(#481));
#483=FACE_BOUND('',#482,.T.);
#484=ORIENTED_EDGE('',*,*,#339,.T.);
#485=EDGE_LOOP('',(#484));
#486=FACE_BOUND('',#485,.T.);
#487=ORIENTED_EDGE('',*,*,#376,.T.);
#488=EDGE_LOOP('',(#487));
#489=FACE_BOUND('',#488,.T.);
#490=ADVANCED_FACE('',(#471,#477,#480,#483,#486,#489),#467,.F.);
#491=CLOSED_SHELL('',(#83,#116,#147,#171,#194,#235,#252,#272,#289,#309,#326,#346,#363,#383,#425,#449,#462,#490));
#492=MANIFOLD_SOLID_BREP('',#491);
#493=COLOUR_RGB('Gold Metallic',0.678430974483490,0.533333003520966,0.094117596745491);
#494=FILL_AREA_STYLE_COLOUR('Gold Metallic',#493);
#495=FILL_AREA_STYLE('Gold Metallic',(#494));
#496=SURFACE_STYLE_FILL_AREA(#495);
#497=SURFACE_SIDE_STYLE('Gold Metallic',(#496));
#498=SURFACE_STYLE_USAGE(.BOTH.,#497);
#499=PRESENTATION_STYLE_ASSIGNMENT((#498));
#500=STYLED_ITEM('',(#499),#492);
#501=MECHANICAL_DESIGN_GEOMETRIC_PRESENTATION_REPRESENTATION('',(#500),#36);
#502=ADVANCED_BREP_SHAPE_REPRESENTATION('ABSR',(#492),#36);
#503=SHAPE_REPRESENTATION_RELATIONSHIP('SRR','None',#502,#41);
ENDSEC;
END-ISO-10303-21;
